ISO-10303-21;
HEADER;
/* Generated by software containing ST-Developer
 * from STEP Tools, Inc. (www.steptools.com) 
 */
/* OPTION: using custom renumber hook */

FILE_DESCRIPTION(
/* description */ ('STEP AP242',
'CAx-IF Rec.Pracs.---Representation and Presentation of Product Manufa
cturing Information (PMI)---4.0---2014-10-13',
'CAx-IF Rec.Pracs.---3D Tessellated Geometry---0.4---2014-09-14','2;1'),

/* implementation_level */ '2;1');

FILE_NAME(
/* name */ '676467234adeaf7533213e80',
/* time_stamp */ '2024-12-19T18:34:12Z',
/* author */ (''),
/* organization */ (''),
/* preprocessor_version */ 'ST-DEVELOPER v20',
/* originating_system */ 'ONSHAPE BY PTC INC, 1.191',
/* authorisation */ '  ');

FILE_SCHEMA (('AP242_MANAGED_MODEL_BASED_3D_ENGINEERING_MIM_LF { 1 0 10303 442 1 1 4 }'));
ENDSEC;

DATA;
#10=SHAPE_REPRESENTATION_RELATIONSHIP('','',#418,#11);
#11=ADVANCED_BREP_SHAPE_REPRESENTATION('',(#416),#708);
#12=LINE('',#612,#35);
#13=LINE('',#615,#36);
#14=LINE('',#617,#37);
#15=LINE('',#619,#38);
#16=LINE('',#621,#39);
#17=LINE('',#624,#40);
#18=LINE('',#626,#41);
#19=LINE('',#628,#42);
#20=LINE('',#630,#43);
#21=LINE('',#633,#44);
#22=LINE('',#635,#45);
#23=LINE('',#637,#46);
#24=LINE('',#639,#47);
#25=LINE('',#642,#48);
#26=LINE('',#644,#49);
#27=LINE('',#646,#50);
#28=LINE('',#648,#51);
#29=LINE('',#651,#52);
#30=LINE('',#653,#53);
#31=LINE('',#655,#54);
#32=LINE('',#657,#55);
#33=LINE('',#659,#56);
#34=LINE('',#661,#57);
#35=VECTOR('',#492,1.);
#36=VECTOR('',#493,1.);
#37=VECTOR('',#494,1.);
#38=VECTOR('',#495,1.);
#39=VECTOR('',#498,1.);
#40=VECTOR('',#499,1.);
#41=VECTOR('',#500,1.);
#42=VECTOR('',#501,1.);
#43=VECTOR('',#504,1.);
#44=VECTOR('',#505,1.);
#45=VECTOR('',#506,1.);
#46=VECTOR('',#507,1.);
#47=VECTOR('',#510,1.);
#48=VECTOR('',#511,1.);
#49=VECTOR('',#512,1.);
#50=VECTOR('',#513,1.);
#51=VECTOR('',#516,1.);
#52=VECTOR('',#517,1.);
#53=VECTOR('',#518,1.);
#54=VECTOR('',#519,1.);
#55=VECTOR('',#522,1.);
#56=VECTOR('',#523,1.);
#57=VECTOR('',#524,1.);
#58=PLANE('',#429);
#59=PLANE('',#430);
#60=PLANE('',#431);
#61=PLANE('',#432);
#62=PLANE('',#433);
#63=PLANE('',#434);
#64=PLANE('',#435);
#65=PLANE('',#443);
#66=PLANE('',#461);
#67=PLANE('',#464);
#68=PLANE('',#467);
#69=ORIENTED_EDGE('',*,*,#167,.T.);
#70=ORIENTED_EDGE('',*,*,#168,.F.);
#71=ORIENTED_EDGE('',*,*,#169,.T.);
#72=ORIENTED_EDGE('',*,*,#170,.F.);
#73=ORIENTED_EDGE('',*,*,#171,.T.);
#74=ORIENTED_EDGE('',*,*,#172,.F.);
#75=ORIENTED_EDGE('',*,*,#173,.T.);
#76=ORIENTED_EDGE('',*,*,#174,.T.);
#77=ORIENTED_EDGE('',*,*,#175,.F.);
#78=ORIENTED_EDGE('',*,*,#176,.F.);
#79=ORIENTED_EDGE('',*,*,#177,.F.);
#80=ORIENTED_EDGE('',*,*,#178,.T.);
#81=ORIENTED_EDGE('',*,*,#179,.T.);
#82=ORIENTED_EDGE('',*,*,#180,.T.);
#83=ORIENTED_EDGE('',*,*,#181,.F.);
#84=ORIENTED_EDGE('',*,*,#182,.T.);
#85=ORIENTED_EDGE('',*,*,#183,.T.);
#86=ORIENTED_EDGE('',*,*,#184,.T.);
#87=ORIENTED_EDGE('',*,*,#185,.F.);
#88=ORIENTED_EDGE('',*,*,#186,.T.);
#89=ORIENTED_EDGE('',*,*,#187,.T.);
#90=ORIENTED_EDGE('',*,*,#188,.T.);
#91=ORIENTED_EDGE('',*,*,#189,.T.);
#92=ORIENTED_EDGE('',*,*,#190,.T.);
#93=ORIENTED_EDGE('',*,*,#191,.F.);
#94=ORIENTED_EDGE('',*,*,#192,.T.);
#95=ORIENTED_EDGE('',*,*,#193,.T.);
#96=ORIENTED_EDGE('',*,*,#194,.T.);
#97=ORIENTED_EDGE('',*,*,#195,.F.);
#98=ORIENTED_EDGE('',*,*,#180,.F.);
#99=ORIENTED_EDGE('',*,*,#171,.F.);
#100=ORIENTED_EDGE('',*,*,#169,.F.);
#101=ORIENTED_EDGE('',*,*,#196,.F.);
#102=ORIENTED_EDGE('',*,*,#197,.F.);
#103=ORIENTED_EDGE('',*,*,#167,.F.);
#104=ORIENTED_EDGE('',*,*,#175,.T.);
#105=ORIENTED_EDGE('',*,*,#198,.T.);
#106=ORIENTED_EDGE('',*,*,#189,.F.);
#107=ORIENTED_EDGE('',*,*,#199,.T.);
#108=ORIENTED_EDGE('',*,*,#193,.F.);
#109=ORIENTED_EDGE('',*,*,#179,.F.);
#110=ORIENTED_EDGE('',*,*,#200,.T.);
#111=ORIENTED_EDGE('',*,*,#181,.T.);
#112=ORIENTED_EDGE('',*,*,#201,.T.);
#113=ORIENTED_EDGE('',*,*,#185,.T.);
#114=ORIENTED_EDGE('',*,*,#202,.F.);
#115=ORIENTED_EDGE('',*,*,#203,.F.);
#116=ORIENTED_EDGE('',*,*,#204,.F.);
#117=ORIENTED_EDGE('',*,*,#205,.F.);
#118=ORIENTED_EDGE('',*,*,#206,.T.);
#119=ORIENTED_EDGE('',*,*,#207,.T.);
#120=ORIENTED_EDGE('',*,*,#191,.T.);
#121=ORIENTED_EDGE('',*,*,#208,.T.);
#122=ORIENTED_EDGE('',*,*,#173,.F.);
#123=ORIENTED_EDGE('',*,*,#209,.T.);
#124=ORIENTED_EDGE('',*,*,#187,.F.);
#125=ORIENTED_EDGE('',*,*,#210,.T.);
#126=ORIENTED_EDGE('',*,*,#183,.F.);
#127=ORIENTED_EDGE('',*,*,#211,.T.);
#128=ORIENTED_EDGE('',*,*,#177,.T.);
#129=ORIENTED_EDGE('',*,*,#195,.T.);
#130=ORIENTED_EDGE('',*,*,#212,.T.);
#131=ORIENTED_EDGE('',*,*,#202,.T.);
#132=ORIENTED_EDGE('',*,*,#188,.F.);
#133=ORIENTED_EDGE('',*,*,#209,.F.);
#134=ORIENTED_EDGE('',*,*,#176,.T.);
#135=ORIENTED_EDGE('',*,*,#197,.T.);
#136=ORIENTED_EDGE('',*,*,#207,.F.);
#137=ORIENTED_EDGE('',*,*,#196,.T.);
#138=ORIENTED_EDGE('',*,*,#206,.F.);
#139=ORIENTED_EDGE('',*,*,#198,.F.);
#140=ORIENTED_EDGE('',*,*,#174,.F.);
#141=ORIENTED_EDGE('',*,*,#208,.F.);
#142=ORIENTED_EDGE('',*,*,#190,.F.);
#143=ORIENTED_EDGE('',*,*,#199,.F.);
#144=ORIENTED_EDGE('',*,*,#192,.F.);
#145=ORIENTED_EDGE('',*,*,#212,.F.);
#146=ORIENTED_EDGE('',*,*,#194,.F.);
#147=ORIENTED_EDGE('',*,*,#200,.F.);
#148=ORIENTED_EDGE('',*,*,#178,.F.);
#149=ORIENTED_EDGE('',*,*,#211,.F.);
#150=ORIENTED_EDGE('',*,*,#182,.F.);
#151=ORIENTED_EDGE('',*,*,#201,.F.);
#152=ORIENTED_EDGE('',*,*,#184,.F.);
#153=ORIENTED_EDGE('',*,*,#210,.F.);
#154=ORIENTED_EDGE('',*,*,#186,.F.);
#155=ORIENTED_EDGE('',*,*,#213,.T.);
#156=ORIENTED_EDGE('',*,*,#172,.T.);
#157=ORIENTED_EDGE('',*,*,#213,.F.);
#158=ORIENTED_EDGE('',*,*,#204,.T.);
#159=ORIENTED_EDGE('',*,*,#214,.T.);
#160=ORIENTED_EDGE('',*,*,#170,.T.);
#161=ORIENTED_EDGE('',*,*,#214,.F.);
#162=ORIENTED_EDGE('',*,*,#203,.T.);
#163=ORIENTED_EDGE('',*,*,#215,.T.);
#164=ORIENTED_EDGE('',*,*,#168,.T.);
#165=ORIENTED_EDGE('',*,*,#215,.F.);
#166=ORIENTED_EDGE('',*,*,#205,.T.);
#167=EDGE_CURVE('',#216,#216,#254,.T.);
#168=EDGE_CURVE('',#217,#217,#255,.F.);
#169=EDGE_CURVE('',#218,#218,#256,.T.);
#170=EDGE_CURVE('',#219,#219,#257,.F.);
#171=EDGE_CURVE('',#220,#220,#258,.T.);
#172=EDGE_CURVE('',#221,#221,#259,.F.);
#173=EDGE_CURVE('',#222,#223,#12,.T.);
#174=EDGE_CURVE('',#223,#224,#13,.F.);
#175=EDGE_CURVE('',#225,#224,#14,.T.);
#176=EDGE_CURVE('',#222,#225,#15,.T.);
#177=EDGE_CURVE('',#226,#227,#16,.T.);
#178=EDGE_CURVE('',#226,#228,#17,.F.);
#179=EDGE_CURVE('',#228,#229,#18,.T.);
#180=EDGE_CURVE('',#229,#227,#19,.T.);
#181=EDGE_CURVE('',#230,#231,#20,.T.);
#182=EDGE_CURVE('',#230,#232,#21,.T.);
#183=EDGE_CURVE('',#232,#233,#22,.T.);
#184=EDGE_CURVE('',#233,#231,#23,.F.);
#185=EDGE_CURVE('',#234,#235,#24,.T.);
#186=EDGE_CURVE('',#234,#236,#25,.T.);
#187=EDGE_CURVE('',#236,#237,#26,.T.);
#188=EDGE_CURVE('',#237,#235,#27,.T.);
#189=EDGE_CURVE('',#238,#239,#28,.T.);
#190=EDGE_CURVE('',#239,#240,#29,.T.);
#191=EDGE_CURVE('',#241,#240,#30,.T.);
#192=EDGE_CURVE('',#241,#238,#31,.F.);
#193=EDGE_CURVE('',#229,#242,#32,.T.);
#194=EDGE_CURVE('',#242,#243,#33,.T.);
#195=EDGE_CURVE('',#227,#243,#34,.T.);
#196=EDGE_CURVE('',#244,#244,#260,.T.);
#197=EDGE_CURVE('',#245,#245,#261,.T.);
#198=EDGE_CURVE('',#224,#239,#262,.T.);
#199=EDGE_CURVE('',#238,#242,#263,.T.);
#200=EDGE_CURVE('',#228,#230,#264,.T.);
#201=EDGE_CURVE('',#231,#234,#265,.T.);
#202=EDGE_CURVE('',#225,#235,#266,.T.);
#203=EDGE_CURVE('',#246,#246,#267,.T.);
#204=EDGE_CURVE('',#247,#247,#268,.T.);
#205=EDGE_CURVE('',#248,#248,#269,.T.);
#206=EDGE_CURVE('',#249,#249,#270,.T.);
#207=EDGE_CURVE('',#250,#250,#271,.T.);
#208=EDGE_CURVE('',#240,#223,#272,.F.);
#209=EDGE_CURVE('',#222,#237,#273,.T.);
#210=EDGE_CURVE('',#236,#233,#274,.F.);
#211=EDGE_CURVE('',#232,#226,#275,.F.);
#212=EDGE_CURVE('',#243,#241,#276,.F.);
#213=EDGE_CURVE('',#251,#251,#277,.T.);
#214=EDGE_CURVE('',#252,#252,#278,.T.);
#215=EDGE_CURVE('',#253,#253,#279,.T.);
#216=VERTEX_POINT('',#598);
#217=VERTEX_POINT('',#600);
#218=VERTEX_POINT('',#603);
#219=VERTEX_POINT('',#605);
#220=VERTEX_POINT('',#608);
#221=VERTEX_POINT('',#610);
#222=VERTEX_POINT('',#613);
#223=VERTEX_POINT('',#614);
#224=VERTEX_POINT('',#616);
#225=VERTEX_POINT('',#618);
#226=VERTEX_POINT('',#622);
#227=VERTEX_POINT('',#623);
#228=VERTEX_POINT('',#625);
#229=VERTEX_POINT('',#627);
#230=VERTEX_POINT('',#631);
#231=VERTEX_POINT('',#632);
#232=VERTEX_POINT('',#634);
#233=VERTEX_POINT('',#636);
#234=VERTEX_POINT('',#640);
#235=VERTEX_POINT('',#641);
#236=VERTEX_POINT('',#643);
#237=VERTEX_POINT('',#645);
#238=VERTEX_POINT('',#649);
#239=VERTEX_POINT('',#650);
#240=VERTEX_POINT('',#652);
#241=VERTEX_POINT('',#654);
#242=VERTEX_POINT('',#658);
#243=VERTEX_POINT('',#660);
#244=VERTEX_POINT('',#664);
#245=VERTEX_POINT('',#666);
#246=VERTEX_POINT('',#674);
#247=VERTEX_POINT('',#676);
#248=VERTEX_POINT('',#678);
#249=VERTEX_POINT('',#680);
#250=VERTEX_POINT('',#682);
#251=VERTEX_POINT('',#697);
#252=VERTEX_POINT('',#701);
#253=VERTEX_POINT('',#705);
#254=CIRCLE('',#421,0.00135);
#255=CIRCLE('',#422,0.00135);
#256=CIRCLE('',#424,0.00135);
#257=CIRCLE('',#425,0.00135);
#258=CIRCLE('',#427,0.00135);
#259=CIRCLE('',#428,0.00135);
#260=CIRCLE('',#436,0.00135);
#261=CIRCLE('',#437,0.00135);
#262=CIRCLE('',#438,0.003);
#263=CIRCLE('',#439,0.003);
#264=CIRCLE('',#440,0.003);
#265=CIRCLE('',#441,0.003);
#266=CIRCLE('',#442,0.012);
#267=CIRCLE('',#444,0.004);
#268=CIRCLE('',#445,0.004);
#269=CIRCLE('',#446,0.004);
#270=CIRCLE('',#447,0.00135);
#271=CIRCLE('',#448,0.00135);
#272=CIRCLE('',#449,0.003);
#273=CIRCLE('',#450,0.012);
#274=CIRCLE('',#451,0.003);
#275=CIRCLE('',#452,0.003);
#276=CIRCLE('',#453,0.003);
#277=CIRCLE('',#462,0.004);
#278=CIRCLE('',#465,0.004);
#279=CIRCLE('',#468,0.004);
#280=EDGE_LOOP('',(#69));
#281=EDGE_LOOP('',(#70));
#282=EDGE_LOOP('',(#71));
#283=EDGE_LOOP('',(#72));
#284=EDGE_LOOP('',(#73));
#285=EDGE_LOOP('',(#74));
#286=EDGE_LOOP('',(#75,#76,#77,#78));
#287=EDGE_LOOP('',(#79,#80,#81,#82));
#288=EDGE_LOOP('',(#83,#84,#85,#86));
#289=EDGE_LOOP('',(#87,#88,#89,#90));
#290=EDGE_LOOP('',(#91,#92,#93,#94));
#291=EDGE_LOOP('',(#95,#96,#97,#98));
#292=EDGE_LOOP('',(#99));
#293=EDGE_LOOP('',(#100));
#294=EDGE_LOOP('',(#101));
#295=EDGE_LOOP('',(#102));
#296=EDGE_LOOP('',(#103));
#297=EDGE_LOOP('',(#104,#105,#106,#107,#108,#109,#110,#111,#112,#113,#114));
#298=EDGE_LOOP('',(#115));
#299=EDGE_LOOP('',(#116));
#300=EDGE_LOOP('',(#117));
#301=EDGE_LOOP('',(#118));
#302=EDGE_LOOP('',(#119));
#303=EDGE_LOOP('',(#120,#121,#122,#123,#124,#125,#126,#127,#128,#129,#130));
#304=EDGE_LOOP('',(#131,#132,#133,#134));
#305=EDGE_LOOP('',(#135));
#306=EDGE_LOOP('',(#136));
#307=EDGE_LOOP('',(#137));
#308=EDGE_LOOP('',(#138));
#309=EDGE_LOOP('',(#139,#140,#141,#142));
#310=EDGE_LOOP('',(#143,#144,#145,#146));
#311=EDGE_LOOP('',(#147,#148,#149,#150));
#312=EDGE_LOOP('',(#151,#152,#153,#154));
#313=EDGE_LOOP('',(#155));
#314=EDGE_LOOP('',(#156));
#315=EDGE_LOOP('',(#157));
#316=EDGE_LOOP('',(#158));
#317=EDGE_LOOP('',(#159));
#318=EDGE_LOOP('',(#160));
#319=EDGE_LOOP('',(#161));
#320=EDGE_LOOP('',(#162));
#321=EDGE_LOOP('',(#163));
#322=EDGE_LOOP('',(#164));
#323=EDGE_LOOP('',(#165));
#324=EDGE_LOOP('',(#166));
#325=FACE_BOUND('',#280,.T.);
#326=FACE_BOUND('',#281,.T.);
#327=FACE_BOUND('',#282,.T.);
#328=FACE_BOUND('',#283,.T.);
#329=FACE_BOUND('',#284,.T.);
#330=FACE_BOUND('',#285,.T.);
#331=FACE_BOUND('',#286,.T.);
#332=FACE_BOUND('',#287,.T.);
#333=FACE_BOUND('',#288,.T.);
#334=FACE_BOUND('',#289,.T.);
#335=FACE_BOUND('',#290,.T.);
#336=FACE_BOUND('',#291,.T.);
#337=FACE_BOUND('',#292,.T.);
#338=FACE_BOUND('',#293,.T.);
#339=FACE_BOUND('',#294,.T.);
#340=FACE_BOUND('',#295,.T.);
#341=FACE_BOUND('',#296,.T.);
#342=FACE_BOUND('',#297,.T.);
#343=FACE_BOUND('',#298,.T.);
#344=FACE_BOUND('',#299,.T.);
#345=FACE_BOUND('',#300,.T.);
#346=FACE_BOUND('',#301,.T.);
#347=FACE_BOUND('',#302,.T.);
#348=FACE_BOUND('',#303,.T.);
#349=FACE_BOUND('',#304,.T.);
#350=FACE_BOUND('',#305,.T.);
#351=FACE_BOUND('',#306,.T.);
#352=FACE_BOUND('',#307,.T.);
#353=FACE_BOUND('',#308,.T.);
#354=FACE_BOUND('',#309,.T.);
#355=FACE_BOUND('',#310,.T.);
#356=FACE_BOUND('',#311,.T.);
#357=FACE_BOUND('',#312,.T.);
#358=FACE_BOUND('',#313,.T.);
#359=FACE_BOUND('',#314,.T.);
#360=FACE_BOUND('',#315,.T.);
#361=FACE_BOUND('',#316,.T.);
#362=FACE_BOUND('',#317,.T.);
#363=FACE_BOUND('',#318,.T.);
#364=FACE_BOUND('',#319,.T.);
#365=FACE_BOUND('',#320,.T.);
#366=FACE_BOUND('',#321,.T.);
#367=FACE_BOUND('',#322,.T.);
#368=FACE_BOUND('',#323,.T.);
#369=FACE_BOUND('',#324,.T.);
#370=CYLINDRICAL_SURFACE('',#420,0.00135);
#371=CYLINDRICAL_SURFACE('',#423,0.00135);
#372=CYLINDRICAL_SURFACE('',#426,0.00135);
#373=CYLINDRICAL_SURFACE('',#454,0.012);
#374=CYLINDRICAL_SURFACE('',#455,0.00135);
#375=CYLINDRICAL_SURFACE('',#456,0.00135);
#376=CYLINDRICAL_SURFACE('',#457,0.003);
#377=CYLINDRICAL_SURFACE('',#458,0.003);
#378=CYLINDRICAL_SURFACE('',#459,0.003);
#379=CYLINDRICAL_SURFACE('',#460,0.003);
#380=CYLINDRICAL_SURFACE('',#463,0.004);
#381=CYLINDRICAL_SURFACE('',#466,0.004);
#382=CYLINDRICAL_SURFACE('',#469,0.004);
#383=ADVANCED_FACE('',(#325,#326),#370,.F.);
#384=ADVANCED_FACE('',(#327,#328),#371,.F.);
#385=ADVANCED_FACE('',(#329,#330),#372,.F.);
#386=ADVANCED_FACE('',(#331),#58,.F.);
#387=ADVANCED_FACE('',(#332),#59,.T.);
#388=ADVANCED_FACE('',(#333),#60,.F.);
#389=ADVANCED_FACE('',(#334),#61,.F.);
#390=ADVANCED_FACE('',(#335),#62,.T.);
#391=ADVANCED_FACE('',(#336),#63,.T.);
#392=ADVANCED_FACE('',(#337,#338,#339,#340,#341,#342),#64,.T.);
#393=ADVANCED_FACE('',(#343,#344,#345,#346,#347,#348),#65,.F.);
#394=ADVANCED_FACE('',(#349),#373,.T.);
#395=ADVANCED_FACE('',(#350,#351),#374,.F.);
#396=ADVANCED_FACE('',(#352,#353),#375,.F.);
#397=ADVANCED_FACE('',(#354),#376,.T.);
#398=ADVANCED_FACE('',(#355),#377,.T.);
#399=ADVANCED_FACE('',(#356),#378,.T.);
#400=ADVANCED_FACE('',(#357),#379,.T.);
#401=ADVANCED_FACE('',(#358,#359),#66,.T.);
#402=ADVANCED_FACE('',(#360,#361),#380,.F.);
#403=ADVANCED_FACE('',(#362,#363),#67,.T.);
#404=ADVANCED_FACE('',(#364,#365),#381,.F.);
#405=ADVANCED_FACE('',(#366,#367),#68,.T.);
#406=ADVANCED_FACE('',(#368,#369),#382,.F.);
#407=CLOSED_SHELL('',(#383,#384,#385,#386,#387,#388,#389,#390,#391,#392,
#393,#394,#395,#396,#397,#398,#399,#400,#401,#402,#403,#404,#405,#406));
#408=STYLED_ITEM('',(#409),#416);
#409=PRESENTATION_STYLE_ASSIGNMENT((#410));
#410=SURFACE_STYLE_USAGE(.BOTH.,#411);
#411=SURFACE_SIDE_STYLE('',(#412));
#412=SURFACE_STYLE_FILL_AREA(#413);
#413=FILL_AREA_STYLE('',(#414));
#414=FILL_AREA_STYLE_COLOUR('',#415);
#415=COLOUR_RGB('',0.615686274509804,0.811764705882353,0.929411764705882);
#416=MANIFOLD_SOLID_BREP('Corner',#407);
#417=SHAPE_DEFINITION_REPRESENTATION(#713,#418);
#418=SHAPE_REPRESENTATION('Corner',(#419),#708);
#419=AXIS2_PLACEMENT_3D('',#595,#470,#471);
#420=AXIS2_PLACEMENT_3D('',#596,#472,#473);
#421=AXIS2_PLACEMENT_3D('',#597,#474,#475);
#422=AXIS2_PLACEMENT_3D('',#599,#476,#477);
#423=AXIS2_PLACEMENT_3D('',#601,#478,#479);
#424=AXIS2_PLACEMENT_3D('',#602,#480,#481);
#425=AXIS2_PLACEMENT_3D('',#604,#482,#483);
#426=AXIS2_PLACEMENT_3D('',#606,#484,#485);
#427=AXIS2_PLACEMENT_3D('',#607,#486,#487);
#428=AXIS2_PLACEMENT_3D('',#609,#488,#489);
#429=AXIS2_PLACEMENT_3D('',#611,#490,#491);
#430=AXIS2_PLACEMENT_3D('',#620,#496,#497);
#431=AXIS2_PLACEMENT_3D('',#629,#502,#503);
#432=AXIS2_PLACEMENT_3D('',#638,#508,#509);
#433=AXIS2_PLACEMENT_3D('',#647,#514,#515);
#434=AXIS2_PLACEMENT_3D('',#656,#520,#521);
#435=AXIS2_PLACEMENT_3D('',#662,#525,#526);
#436=AXIS2_PLACEMENT_3D('',#663,#527,#528);
#437=AXIS2_PLACEMENT_3D('',#665,#529,#530);
#438=AXIS2_PLACEMENT_3D('',#667,#531,#532);
#439=AXIS2_PLACEMENT_3D('',#668,#533,#534);
#440=AXIS2_PLACEMENT_3D('',#669,#535,#536);
#441=AXIS2_PLACEMENT_3D('',#670,#537,#538);
#442=AXIS2_PLACEMENT_3D('',#671,#539,#540);
#443=AXIS2_PLACEMENT_3D('',#672,#541,#542);
#444=AXIS2_PLACEMENT_3D('',#673,#543,#544);
#445=AXIS2_PLACEMENT_3D('',#675,#545,#546);
#446=AXIS2_PLACEMENT_3D('',#677,#547,#548);
#447=AXIS2_PLACEMENT_3D('',#679,#549,#550);
#448=AXIS2_PLACEMENT_3D('',#681,#551,#552);
#449=AXIS2_PLACEMENT_3D('',#683,#553,#554);
#450=AXIS2_PLACEMENT_3D('',#684,#555,#556);
#451=AXIS2_PLACEMENT_3D('',#685,#557,#558);
#452=AXIS2_PLACEMENT_3D('',#686,#559,#560);
#453=AXIS2_PLACEMENT_3D('',#687,#561,#562);
#454=AXIS2_PLACEMENT_3D('',#688,#563,#564);
#455=AXIS2_PLACEMENT_3D('',#689,#565,#566);
#456=AXIS2_PLACEMENT_3D('',#690,#567,#568);
#457=AXIS2_PLACEMENT_3D('',#691,#569,#570);
#458=AXIS2_PLACEMENT_3D('',#692,#571,#572);
#459=AXIS2_PLACEMENT_3D('',#693,#573,#574);
#460=AXIS2_PLACEMENT_3D('',#694,#575,#576);
#461=AXIS2_PLACEMENT_3D('',#695,#577,#578);
#462=AXIS2_PLACEMENT_3D('',#696,#579,#580);
#463=AXIS2_PLACEMENT_3D('',#698,#581,#582);
#464=AXIS2_PLACEMENT_3D('',#699,#583,#584);
#465=AXIS2_PLACEMENT_3D('',#700,#585,#586);
#466=AXIS2_PLACEMENT_3D('',#702,#587,#588);
#467=AXIS2_PLACEMENT_3D('',#703,#589,#590);
#468=AXIS2_PLACEMENT_3D('',#704,#591,#592);
#469=AXIS2_PLACEMENT_3D('',#706,#593,#594);
#470=DIRECTION('',(0.,0.,1.));
#471=DIRECTION('',(1.,0.,0.));
#472=DIRECTION('',(0.,0.,1.));
#473=DIRECTION('',(1.,0.,0.));
#474=DIRECTION('',(0.,0.,1.));
#475=DIRECTION('',(1.,0.,0.));
#476=DIRECTION('',(0.,0.,-1.));
#477=DIRECTION('',(-1.,0.,0.));
#478=DIRECTION('',(0.,0.,1.));
#479=DIRECTION('',(1.,0.,0.));
#480=DIRECTION('',(0.,0.,1.));
#481=DIRECTION('',(1.,0.,0.));
#482=DIRECTION('',(0.,0.,-1.));
#483=DIRECTION('',(-1.,0.,0.));
#484=DIRECTION('',(0.,0.,1.));
#485=DIRECTION('',(1.,0.,0.));
#486=DIRECTION('',(0.,0.,1.));
#487=DIRECTION('',(1.,0.,0.));
#488=DIRECTION('',(0.,0.,-1.));
#489=DIRECTION('',(-1.,0.,0.));
#490=DIRECTION('',(0.,1.,0.));
#491=DIRECTION('',(0.,0.,1.));
#492=DIRECTION('',(1.,0.,0.));
#493=DIRECTION('',(0.,0.,-1.));
#494=DIRECTION('',(1.,0.,0.));
#495=DIRECTION('',(0.,0.,1.));
#496=DIRECTION('',(-1.,0.,0.));
#497=DIRECTION('',(0.,0.,1.));
#498=DIRECTION('',(0.,1.,0.));
#499=DIRECTION('',(0.,0.,-1.));
#500=DIRECTION('',(0.,1.,0.));
#501=DIRECTION('',(0.,0.,-1.));
#502=DIRECTION('',(0.,1.,0.));
#503=DIRECTION('',(0.,0.,1.));
#504=DIRECTION('',(1.,0.,0.));
#505=DIRECTION('',(0.,0.,-1.));
#506=DIRECTION('',(1.,0.,0.));
#507=DIRECTION('',(0.,0.,-1.));
#508=DIRECTION('',(-1.,0.,0.));
#509=DIRECTION('',(0.,0.,1.));
#510=DIRECTION('',(0.,1.,0.));
#511=DIRECTION('',(0.,0.,-1.));
#512=DIRECTION('',(0.,1.,0.));
#513=DIRECTION('',(0.,0.,1.));
#514=DIRECTION('',(1.,0.,0.));
#515=DIRECTION('',(0.,0.,-1.));
#516=DIRECTION('',(0.,-1.,0.));
#517=DIRECTION('',(0.,0.,-1.));
#518=DIRECTION('',(0.,-1.,0.));
#519=DIRECTION('',(0.,0.,-1.));
#520=DIRECTION('',(0.,1.,0.));
#521=DIRECTION('',(0.,0.,1.));
#522=DIRECTION('',(1.,0.,0.));
#523=DIRECTION('',(0.,0.,-1.));
#524=DIRECTION('',(1.,0.,0.));
#525=DIRECTION('',(0.,0.,1.));
#526=DIRECTION('',(1.,0.,0.));
#527=DIRECTION('',(0.,0.,1.));
#528=DIRECTION('',(1.,0.,0.));
#529=DIRECTION('',(0.,0.,1.));
#530=DIRECTION('',(1.,0.,0.));
#531=DIRECTION('',(0.,0.,1.));
#532=DIRECTION('',(1.,0.,0.));
#533=DIRECTION('',(0.,0.,1.));
#534=DIRECTION('',(1.,0.,0.));
#535=DIRECTION('',(0.,0.,1.));
#536=DIRECTION('',(1.,0.,0.));
#537=DIRECTION('',(0.,0.,1.));
#538=DIRECTION('',(1.,0.,0.));
#539=DIRECTION('',(0.,0.,-1.));
#540=DIRECTION('',(1.,0.,0.));
#541=DIRECTION('',(0.,0.,1.));
#542=DIRECTION('',(1.,0.,0.));
#543=DIRECTION('',(0.,0.,-1.));
#544=DIRECTION('',(-1.,0.,0.));
#545=DIRECTION('',(0.,0.,-1.));
#546=DIRECTION('',(-1.,0.,0.));
#547=DIRECTION('',(0.,0.,-1.));
#548=DIRECTION('',(-1.,0.,0.));
#549=DIRECTION('',(0.,0.,1.));
#550=DIRECTION('',(1.,0.,0.));
#551=DIRECTION('',(0.,0.,1.));
#552=DIRECTION('',(1.,0.,0.));
#553=DIRECTION('',(0.,0.,1.));
#554=DIRECTION('',(1.,0.,0.));
#555=DIRECTION('',(0.,0.,-1.));
#556=DIRECTION('',(1.,0.,0.));
#557=DIRECTION('',(0.,0.,1.));
#558=DIRECTION('',(1.,0.,0.));
#559=DIRECTION('',(0.,0.,1.));
#560=DIRECTION('',(1.,0.,0.));
#561=DIRECTION('',(0.,0.,1.));
#562=DIRECTION('',(1.,0.,0.));
#563=DIRECTION('',(0.,0.,1.));
#564=DIRECTION('',(1.,0.,0.));
#565=DIRECTION('',(0.,0.,1.));
#566=DIRECTION('',(1.,0.,0.));
#567=DIRECTION('',(0.,0.,1.));
#568=DIRECTION('',(1.,0.,0.));
#569=DIRECTION('',(0.,0.,1.));
#570=DIRECTION('',(1.,0.,0.));
#571=DIRECTION('',(0.,0.,-1.));
#572=DIRECTION('',(-1.,0.,0.));
#573=DIRECTION('',(0.,0.,1.));
#574=DIRECTION('',(1.,0.,0.));
#575=DIRECTION('',(0.,0.,-1.));
#576=DIRECTION('',(-1.,0.,0.));
#577=DIRECTION('',(0.,0.,-1.));
#578=DIRECTION('',(1.,0.,0.));
#579=DIRECTION('',(0.,0.,-1.));
#580=DIRECTION('',(-1.,0.,0.));
#581=DIRECTION('',(0.,0.,-1.));
#582=DIRECTION('',(-1.,0.,0.));
#583=DIRECTION('',(0.,0.,-1.));
#584=DIRECTION('',(1.,0.,0.));
#585=DIRECTION('',(0.,0.,-1.));
#586=DIRECTION('',(-1.,0.,0.));
#587=DIRECTION('',(0.,0.,-1.));
#588=DIRECTION('',(-1.,0.,0.));
#589=DIRECTION('',(0.,0.,-1.));
#590=DIRECTION('',(1.,0.,0.));
#591=DIRECTION('',(0.,0.,-1.));
#592=DIRECTION('',(-1.,0.,0.));
#593=DIRECTION('',(0.,0.,-1.));
#594=DIRECTION('',(-1.,0.,0.));
#595=CARTESIAN_POINT('',(0.,0.,0.));
#596=CARTESIAN_POINT('',(0.005,0.02,-0.015));
#597=CARTESIAN_POINT('',(0.005,0.02,0.01));
#598=CARTESIAN_POINT('',(0.00635,0.02,0.01));
#599=CARTESIAN_POINT('',(0.005,0.02,0.004));
#600=CARTESIAN_POINT('',(0.00365,0.02,0.004));
#601=CARTESIAN_POINT('',(-4.33680868994202E-19,-0.02,-0.015));
#602=CARTESIAN_POINT('',(-4.33680868994202E-19,-0.02,0.01));
#603=CARTESIAN_POINT('',(0.00135,-0.02,0.01));
#604=CARTESIAN_POINT('',(-4.33680868994202E-19,-0.02,0.004));
#605=CARTESIAN_POINT('',(-0.00135,-0.02,0.004));
#606=CARTESIAN_POINT('',(0.045,0.025,-0.015));
#607=CARTESIAN_POINT('',(0.045,0.025,0.01));
#608=CARTESIAN_POINT('',(0.04635,0.025,0.01));
#609=CARTESIAN_POINT('',(0.045,0.025,0.004));
#610=CARTESIAN_POINT('',(0.04365,0.025,0.004));
#611=CARTESIAN_POINT('',(0.03,0.02,0.01));
#612=CARTESIAN_POINT('',(0.03,0.02,0.));
#613=CARTESIAN_POINT('',(0.017,0.02,0.));
#614=CARTESIAN_POINT('',(0.052,0.02,0.));
#615=CARTESIAN_POINT('',(0.052,0.02,0.01));
#616=CARTESIAN_POINT('',(0.052,0.02,0.01));
#617=CARTESIAN_POINT('',(0.03,0.02,0.01));
#618=CARTESIAN_POINT('',(0.017,0.02,0.01));
#619=CARTESIAN_POINT('',(0.017,0.02,0.));
#620=CARTESIAN_POINT('',(-0.005,6.93889390390723E-18,0.01));
#621=CARTESIAN_POINT('',(-0.005,6.93889390390723E-18,0.));
#622=CARTESIAN_POINT('',(-0.005,-0.027,0.));
#623=CARTESIAN_POINT('',(-0.005,0.03,0.));
#624=CARTESIAN_POINT('',(-0.005,-0.027,0.01));
#625=CARTESIAN_POINT('',(-0.005,-0.027,0.01));
#626=CARTESIAN_POINT('',(-0.005,6.93889390390723E-18,0.01));
#627=CARTESIAN_POINT('',(-0.005,0.03,0.01));
#628=CARTESIAN_POINT('',(-0.005,0.03,0.01));
#629=CARTESIAN_POINT('',(-8.67361737988404E-19,-0.03,0.01));
#630=CARTESIAN_POINT('',(-8.67361737988404E-19,-0.03,0.01));
#631=CARTESIAN_POINT('',(-0.002,-0.03,0.01));
#632=CARTESIAN_POINT('',(0.002,-0.03,0.01));
#633=CARTESIAN_POINT('',(-0.002,-0.03,0.));
#634=CARTESIAN_POINT('',(-0.002,-0.03,0.));
#635=CARTESIAN_POINT('',(-8.67361737988404E-19,-0.03,0.));
#636=CARTESIAN_POINT('',(0.002,-0.03,0.));
#637=CARTESIAN_POINT('',(0.002,-0.03,0.01));
#638=CARTESIAN_POINT('',(0.005,-0.005,0.01));
#639=CARTESIAN_POINT('',(0.005,-0.005,0.01));
#640=CARTESIAN_POINT('',(0.005,-0.027,0.01));
#641=CARTESIAN_POINT('',(0.005,0.008,0.01));
#642=CARTESIAN_POINT('',(0.005,-0.027,0.01));
#643=CARTESIAN_POINT('',(0.005,-0.027,0.));
#644=CARTESIAN_POINT('',(0.005,-0.005,0.));
#645=CARTESIAN_POINT('',(0.005,0.008,0.));
#646=CARTESIAN_POINT('',(0.005,0.008,0.));
#647=CARTESIAN_POINT('',(0.055,0.025,0.01));
#648=CARTESIAN_POINT('',(0.055,0.025,0.01));
#649=CARTESIAN_POINT('',(0.055,0.027,0.01));
#650=CARTESIAN_POINT('',(0.055,0.023,0.01));
#651=CARTESIAN_POINT('',(0.055,0.023,0.));
#652=CARTESIAN_POINT('',(0.055,0.023,0.));
#653=CARTESIAN_POINT('',(0.055,0.025,0.));
#654=CARTESIAN_POINT('',(0.055,0.027,0.));
#655=CARTESIAN_POINT('',(0.055,0.027,0.01));
#656=CARTESIAN_POINT('',(0.025,0.03,0.01));
#657=CARTESIAN_POINT('',(0.025,0.03,0.01));
#658=CARTESIAN_POINT('',(0.052,0.03,0.01));
#659=CARTESIAN_POINT('',(0.052,0.03,0.01));
#660=CARTESIAN_POINT('',(0.052,0.03,0.));
#661=CARTESIAN_POINT('',(0.025,0.03,0.));
#662=CARTESIAN_POINT('',(0.025,6.93889390390723E-18,0.01));
#663=CARTESIAN_POINT('',(-4.33680868994202E-19,1.04910045148033E-17,0.01));
#664=CARTESIAN_POINT('',(0.00135,1.04910045148033E-17,0.01));
#665=CARTESIAN_POINT('',(0.025,0.025,0.01));
#666=CARTESIAN_POINT('',(0.02635,0.025,0.01));
#667=CARTESIAN_POINT('',(0.052,0.023,0.01));
#668=CARTESIAN_POINT('',(0.052,0.027,0.01));
#669=CARTESIAN_POINT('',(-0.002,-0.027,0.01));
#670=CARTESIAN_POINT('',(0.002,-0.027,0.01));
#671=CARTESIAN_POINT('',(0.005,0.02,0.01));
#672=CARTESIAN_POINT('',(0.025,6.93889390390723E-18,0.));
#673=CARTESIAN_POINT('',(0.,-0.02,0.));
#674=CARTESIAN_POINT('',(-0.004,-0.02,0.));
#675=CARTESIAN_POINT('',(0.045,0.025,0.));
#676=CARTESIAN_POINT('',(0.041,0.025,0.));
#677=CARTESIAN_POINT('',(0.005,0.02,0.));
#678=CARTESIAN_POINT('',(0.001,0.02,0.));
#679=CARTESIAN_POINT('',(-4.33680868994202E-19,1.04910045148033E-17,0.));
#680=CARTESIAN_POINT('',(0.00135,1.04910045148033E-17,0.));
#681=CARTESIAN_POINT('',(0.025,0.025,0.));
#682=CARTESIAN_POINT('',(0.02635,0.025,0.));
#683=CARTESIAN_POINT('',(0.052,0.023,0.));
#684=CARTESIAN_POINT('',(0.005,0.02,0.));
#685=CARTESIAN_POINT('',(0.002,-0.027,0.));
#686=CARTESIAN_POINT('',(-0.002,-0.027,0.));
#687=CARTESIAN_POINT('',(0.052,0.027,0.));
#688=CARTESIAN_POINT('',(0.005,0.02,0.));
#689=CARTESIAN_POINT('',(0.025,0.025,-0.015));
#690=CARTESIAN_POINT('',(-4.33680868994202E-19,1.04910045148033E-17,-0.015));
#691=CARTESIAN_POINT('',(0.052,0.023,0.01));
#692=CARTESIAN_POINT('',(0.052,0.027,0.01));
#693=CARTESIAN_POINT('',(-0.002,-0.027,0.01));
#694=CARTESIAN_POINT('',(0.002,-0.027,0.01));
#695=CARTESIAN_POINT('',(0.0155,-0.005,0.004));
#696=CARTESIAN_POINT('',(0.045,0.025,0.004));
#697=CARTESIAN_POINT('',(0.041,0.025,0.004));
#698=CARTESIAN_POINT('',(0.045,0.025,0.004));
#699=CARTESIAN_POINT('',(0.0155,-0.005,0.004));
#700=CARTESIAN_POINT('',(0.,-0.02,0.004));
#701=CARTESIAN_POINT('',(-0.004,-0.02,0.004));
#702=CARTESIAN_POINT('',(0.,-0.02,0.004));
#703=CARTESIAN_POINT('',(0.0155,-0.005,0.004));
#704=CARTESIAN_POINT('',(0.005,0.02,0.004));
#705=CARTESIAN_POINT('',(0.001,0.02,0.004));
#706=CARTESIAN_POINT('',(0.005,0.02,0.004));
#707=MECHANICAL_DESIGN_GEOMETRIC_PRESENTATION_REPRESENTATION('',(#408),
#708);
#708=(
GEOMETRIC_REPRESENTATION_CONTEXT(3)
GLOBAL_UNCERTAINTY_ASSIGNED_CONTEXT((#709))
GLOBAL_UNIT_ASSIGNED_CONTEXT((#712,#711,#710))
REPRESENTATION_CONTEXT('Corner','TOP_LEVEL_ASSEMBLY_PART')
);
#709=UNCERTAINTY_MEASURE_WITH_UNIT(LENGTH_MEASURE(1.E-8),#712,
'DISTANCE_ACCURACY_VALUE','Maximum Tolerance applied to model');
#710=(
NAMED_UNIT(*)
SI_UNIT($,.STERADIAN.)
SOLID_ANGLE_UNIT()
);
#711=(
NAMED_UNIT(*)
PLANE_ANGLE_UNIT()
SI_UNIT($,.RADIAN.)
);
#712=(
LENGTH_UNIT()
NAMED_UNIT(*)
SI_UNIT($,.METRE.)
);
#713=PRODUCT_DEFINITION_SHAPE('','',#714);
#714=PRODUCT_DEFINITION('','',#716,#715);
#715=PRODUCT_DEFINITION_CONTEXT('',#722,'design');
#716=PRODUCT_DEFINITION_FORMATION_WITH_SPECIFIED_SOURCE('','',#718,
 .NOT_KNOWN.);
#717=PRODUCT_RELATED_PRODUCT_CATEGORY('','',(#718));
#718=PRODUCT('Corner','Corner','Corner',(#720));
#719=PRODUCT_CATEGORY('','');
#720=PRODUCT_CONTEXT('',#722,'mechanical');
#721=APPLICATION_PROTOCOL_DEFINITION('international standard',
'ap242_managed_model_based_3d_engineering',2011,#722);
#722=APPLICATION_CONTEXT('managed model based 3d engineering');
ENDSEC;
END-ISO-10303-21;
